ISO-10303-21;
HEADER;
/* Generated by software containing ST-Developer
 * from STEP Tools, Inc. (www.steptools.com) 
 */

FILE_DESCRIPTION(
/* description */ (''),
/* implementation_level */ '2;1');

FILE_NAME(
/* name */ 
'J:\\AM_Zeichnung\\Inventor\\PROJEKT_STAMMORDNER\\Druckmittler\\Druckm
ittler_Baugruppen\\MD60\\Step\\solid\\31325W.stp',
/* time_stamp */ '2018-02-05T12:26:32+01:00',
/* author */ ('acgl'),
/* organization */ (''),
/* preprocessor_version */ 'ST-DEVELOPER v15.6',
/* originating_system */ 'Autodesk Inventor 2015',
/* authorisation */ '');

FILE_SCHEMA (('AUTOMOTIVE_DESIGN { 1 0 10303 214 3 1 1 }'));
ENDSEC;

DATA;
#10=MECHANICAL_DESIGN_GEOMETRIC_PRESENTATION_REPRESENTATION('',(#205,#213,
#206,#207,#209,#210,#208,#211,#212,#225,#216,#218,#215,#222,#214,#223,#220,
#221,#224,#217,#219),#429);
#11=SHAPE_REPRESENTATION_RELATIONSHIP('SRR','None',#439,#12);
#12=ADVANCED_BREP_SHAPE_REPRESENTATION($,(#13),#428);
#13=MANIFOLD_SOLID_BREP('Volumenk\X\F6rper1',#246);
#14=CONICAL_SURFACE('',#255,1.38032806673267,50.);
#15=CONICAL_SURFACE('',#263,2.69609858982434,23.0000000000003);
#16=CONICAL_SURFACE('',#268,2.95390141017566,23.0000000000001);
#17=CONICAL_SURFACE('',#277,2.30908561910178,70.);
#18=TOROIDAL_SURFACE('',#252,1.33180148828669,0.05);
#19=TOROIDAL_SURFACE('',#259,2.62470691716732,0.08);
#20=TOROIDAL_SURFACE('',#265,3.02529308283268,0.08);
#21=TOROIDAL_SURFACE('',#272,2.825,0.12);
#22=TOROIDAL_SURFACE('',#275,3.12,0.0800000000000011);
#23=TOROIDAL_SURFACE('',#279,1.53921365540264,0.2);
#24=PLANE('',#251);
#25=PLANE('',#257);
#26=PLANE('',#262);
#27=PLANE('',#270);
#28=PLANE('',#282);
#29=PLANE('',#286);
#30=FACE_BOUND('',#69,.T.);
#31=FACE_BOUND('',#72,.T.);
#32=FACE_BOUND('',#74,.T.);
#33=FACE_BOUND('',#76,.T.);
#34=FACE_BOUND('',#78,.T.);
#35=FACE_BOUND('',#80,.T.);
#36=FACE_BOUND('',#82,.T.);
#37=FACE_BOUND('',#84,.T.);
#38=FACE_BOUND('',#86,.T.);
#39=FACE_BOUND('',#88,.T.);
#40=FACE_BOUND('',#90,.T.);
#41=FACE_BOUND('',#92,.T.);
#42=FACE_BOUND('',#94,.T.);
#43=FACE_BOUND('',#96,.T.);
#44=FACE_BOUND('',#98,.T.);
#45=FACE_BOUND('',#100,.T.);
#46=FACE_BOUND('',#102,.T.);
#47=FACE_BOUND('',#104,.T.);
#48=FACE_OUTER_BOUND('',#68,.T.);
#49=FACE_OUTER_BOUND('',#70,.T.);
#50=FACE_OUTER_BOUND('',#71,.T.);
#51=FACE_OUTER_BOUND('',#73,.T.);
#52=FACE_OUTER_BOUND('',#75,.T.);
#53=FACE_OUTER_BOUND('',#77,.T.);
#54=FACE_OUTER_BOUND('',#79,.T.);
#55=FACE_OUTER_BOUND('',#81,.T.);
#56=FACE_OUTER_BOUND('',#83,.T.);
#57=FACE_OUTER_BOUND('',#85,.T.);
#58=FACE_OUTER_BOUND('',#87,.T.);
#59=FACE_OUTER_BOUND('',#89,.T.);
#60=FACE_OUTER_BOUND('',#91,.T.);
#61=FACE_OUTER_BOUND('',#93,.T.);
#62=FACE_OUTER_BOUND('',#95,.T.);
#63=FACE_OUTER_BOUND('',#97,.T.);
#64=FACE_OUTER_BOUND('',#99,.T.);
#65=FACE_OUTER_BOUND('',#101,.T.);
#66=FACE_OUTER_BOUND('',#103,.T.);
#67=FACE_OUTER_BOUND('',#105,.T.);
#68=EDGE_LOOP('',(#163));
#69=EDGE_LOOP('',(#164));
#70=EDGE_LOOP('',(#165));
#71=EDGE_LOOP('',(#166));
#72=EDGE_LOOP('',(#167));
#73=EDGE_LOOP('',(#168));
#74=EDGE_LOOP('',(#169));
#75=EDGE_LOOP('',(#170));
#76=EDGE_LOOP('',(#171));
#77=EDGE_LOOP('',(#172));
#78=EDGE_LOOP('',(#173));
#79=EDGE_LOOP('',(#174));
#80=EDGE_LOOP('',(#175));
#81=EDGE_LOOP('',(#176));
#82=EDGE_LOOP('',(#177));
#83=EDGE_LOOP('',(#178));
#84=EDGE_LOOP('',(#179));
#85=EDGE_LOOP('',(#180));
#86=EDGE_LOOP('',(#181));
#87=EDGE_LOOP('',(#182));
#88=EDGE_LOOP('',(#183));
#89=EDGE_LOOP('',(#184));
#90=EDGE_LOOP('',(#185));
#91=EDGE_LOOP('',(#186));
#92=EDGE_LOOP('',(#187));
#93=EDGE_LOOP('',(#188));
#94=EDGE_LOOP('',(#189));
#95=EDGE_LOOP('',(#190));
#96=EDGE_LOOP('',(#191));
#97=EDGE_LOOP('',(#192));
#98=EDGE_LOOP('',(#193));
#99=EDGE_LOOP('',(#194));
#100=EDGE_LOOP('',(#195));
#101=EDGE_LOOP('',(#196));
#102=EDGE_LOOP('',(#197));
#103=EDGE_LOOP('',(#198));
#104=EDGE_LOOP('',(#199));
#105=EDGE_LOOP('',(#200));
#106=CIRCLE('',#249,2.4);
#107=CIRCLE('',#250,2.4);
#108=CIRCLE('',#253,1.36394086877102);
#109=CIRCLE('',#254,1.33180148828669);
#110=CIRCLE('',#256,1.41065613346534);
#111=CIRCLE('',#258,0.505);
#112=CIRCLE('',#260,2.62470691716732);
#113=CIRCLE('',#261,2.69834730544352);
#114=CIRCLE('',#264,2.71453941758571);
#115=CIRCLE('',#266,2.95165269455648);
#116=CIRCLE('',#267,3.02529308283268);
#117=CIRCLE('',#269,2.93546058241429);
#118=CIRCLE('',#271,3.2);
#119=CIRCLE('',#274,3.2);
#120=CIRCLE('',#276,3.14736161146605);
#121=CIRCLE('',#278,1.47080962673751);
#122=CIRCLE('',#281,0.505);
#123=CIRCLE('',#283,0.275);
#124=CIRCLE('',#285,0.275);
#125=VERTEX_POINT('',#369);
#126=VERTEX_POINT('',#371);
#127=VERTEX_POINT('',#375);
#128=VERTEX_POINT('',#377);
#129=VERTEX_POINT('',#380);
#130=VERTEX_POINT('',#383);
#131=VERTEX_POINT('',#386);
#132=VERTEX_POINT('',#388);
#133=VERTEX_POINT('',#392);
#134=VERTEX_POINT('',#395);
#135=VERTEX_POINT('',#397);
#136=VERTEX_POINT('',#400);
#137=VERTEX_POINT('',#403);
#138=VERTEX_POINT('',#407);
#139=VERTEX_POINT('',#410);
#140=VERTEX_POINT('',#413);
#141=VERTEX_POINT('',#417);
#142=VERTEX_POINT('',#420);
#143=VERTEX_POINT('',#423);
#144=EDGE_CURVE('',#125,#125,#106,.T.);
#145=EDGE_CURVE('',#126,#126,#107,.T.);
#146=EDGE_CURVE('',#127,#127,#108,.T.);
#147=EDGE_CURVE('',#128,#128,#109,.T.);
#148=EDGE_CURVE('',#129,#129,#110,.T.);
#149=EDGE_CURVE('',#130,#130,#111,.T.);
#150=EDGE_CURVE('',#131,#131,#112,.T.);
#151=EDGE_CURVE('',#132,#132,#113,.T.);
#152=EDGE_CURVE('',#133,#133,#114,.T.);
#153=EDGE_CURVE('',#134,#134,#115,.T.);
#154=EDGE_CURVE('',#135,#135,#116,.T.);
#155=EDGE_CURVE('',#136,#136,#117,.T.);
#156=EDGE_CURVE('',#137,#137,#118,.T.);
#157=EDGE_CURVE('',#138,#138,#119,.T.);
#158=EDGE_CURVE('',#139,#139,#120,.T.);
#159=EDGE_CURVE('',#140,#140,#121,.T.);
#160=EDGE_CURVE('',#141,#141,#122,.T.);
#161=EDGE_CURVE('',#142,#142,#123,.T.);
#162=EDGE_CURVE('',#143,#143,#124,.T.);
#163=ORIENTED_EDGE('',*,*,#144,.F.);
#164=ORIENTED_EDGE('',*,*,#145,.F.);
#165=ORIENTED_EDGE('',*,*,#144,.T.);
#166=ORIENTED_EDGE('',*,*,#146,.T.);
#167=ORIENTED_EDGE('',*,*,#147,.T.);
#168=ORIENTED_EDGE('',*,*,#148,.T.);
#169=ORIENTED_EDGE('',*,*,#146,.F.);
#170=ORIENTED_EDGE('',*,*,#147,.F.);
#171=ORIENTED_EDGE('',*,*,#149,.F.);
#172=ORIENTED_EDGE('',*,*,#150,.T.);
#173=ORIENTED_EDGE('',*,*,#151,.T.);
#174=ORIENTED_EDGE('',*,*,#150,.F.);
#175=ORIENTED_EDGE('',*,*,#145,.T.);
#176=ORIENTED_EDGE('',*,*,#152,.F.);
#177=ORIENTED_EDGE('',*,*,#151,.F.);
#178=ORIENTED_EDGE('',*,*,#153,.T.);
#179=ORIENTED_EDGE('',*,*,#154,.T.);
#180=ORIENTED_EDGE('',*,*,#155,.T.);
#181=ORIENTED_EDGE('',*,*,#153,.F.);
#182=ORIENTED_EDGE('',*,*,#156,.F.);
#183=ORIENTED_EDGE('',*,*,#154,.F.);
#184=ORIENTED_EDGE('',*,*,#155,.F.);
#185=ORIENTED_EDGE('',*,*,#152,.T.);
#186=ORIENTED_EDGE('',*,*,#157,.F.);
#187=ORIENTED_EDGE('',*,*,#156,.T.);
#188=ORIENTED_EDGE('',*,*,#158,.F.);
#189=ORIENTED_EDGE('',*,*,#157,.T.);
#190=ORIENTED_EDGE('',*,*,#159,.F.);
#191=ORIENTED_EDGE('',*,*,#158,.T.);
#192=ORIENTED_EDGE('',*,*,#148,.F.);
#193=ORIENTED_EDGE('',*,*,#159,.T.);
#194=ORIENTED_EDGE('',*,*,#160,.F.);
#195=ORIENTED_EDGE('',*,*,#149,.T.);
#196=ORIENTED_EDGE('',*,*,#160,.T.);
#197=ORIENTED_EDGE('',*,*,#161,.F.);
#198=ORIENTED_EDGE('',*,*,#162,.F.);
#199=ORIENTED_EDGE('',*,*,#161,.T.);
#200=ORIENTED_EDGE('',*,*,#162,.T.);
#201=CYLINDRICAL_SURFACE('',#248,2.4);
#202=CYLINDRICAL_SURFACE('',#273,3.2);
#203=CYLINDRICAL_SURFACE('',#280,0.505);
#204=CYLINDRICAL_SURFACE('',#284,0.275);
#205=STYLED_ITEM('',(#449),#226);
#206=STYLED_ITEM('',(#449),#227);
#207=STYLED_ITEM('',(#450),#228);
#208=STYLED_ITEM('',(#450),#229);
#209=STYLED_ITEM('',(#450),#230);
#210=STYLED_ITEM('',(#450),#231);
#211=STYLED_ITEM('',(#450),#232);
#212=STYLED_ITEM('',(#450),#233);
#213=STYLED_ITEM('',(#450),#234);
#214=STYLED_ITEM('',(#450),#235);
#215=STYLED_ITEM('',(#450),#236);
#216=STYLED_ITEM('',(#450),#237);
#217=STYLED_ITEM('',(#450),#238);
#218=STYLED_ITEM('',(#450),#239);
#219=STYLED_ITEM('',(#450),#240);
#220=STYLED_ITEM('',(#450),#241);
#221=STYLED_ITEM('',(#450),#242);
#222=STYLED_ITEM('',(#450),#243);
#223=STYLED_ITEM('',(#450),#244);
#224=STYLED_ITEM('',(#450),#245);
#225=STYLED_ITEM('',(#448),#13);
#226=ADVANCED_FACE('',(#48,#30),#201,.T.);
#227=ADVANCED_FACE('',(#49),#24,.T.);
#228=ADVANCED_FACE('',(#50,#31),#18,.T.);
#229=ADVANCED_FACE('',(#51,#32),#14,.T.);
#230=ADVANCED_FACE('',(#52,#33),#25,.T.);
#231=ADVANCED_FACE('',(#53,#34),#19,.T.);
#232=ADVANCED_FACE('',(#54,#35),#26,.T.);
#233=ADVANCED_FACE('',(#55,#36),#15,.T.);
#234=ADVANCED_FACE('',(#56,#37),#20,.T.);
#235=ADVANCED_FACE('',(#57,#38),#16,.F.);
#236=ADVANCED_FACE('',(#58,#39),#27,.T.);
#237=ADVANCED_FACE('',(#59,#40),#21,.F.);
#238=ADVANCED_FACE('',(#60,#41),#202,.T.);
#239=ADVANCED_FACE('',(#61,#42),#22,.T.);
#240=ADVANCED_FACE('',(#62,#43),#17,.T.);
#241=ADVANCED_FACE('',(#63,#44),#23,.F.);
#242=ADVANCED_FACE('',(#64,#45),#203,.F.);
#243=ADVANCED_FACE('',(#65,#46),#28,.T.);
#244=ADVANCED_FACE('',(#66,#47),#204,.F.);
#245=ADVANCED_FACE('',(#67),#29,.T.);
#246=CLOSED_SHELL('',(#226,#227,#228,#229,#230,#231,#232,#233,#234,#235,
#236,#237,#238,#239,#240,#241,#242,#243,#244,#245));
#247=AXIS2_PLACEMENT_3D('placement',#367,#287,#288);
#248=AXIS2_PLACEMENT_3D('',#368,#289,#290);
#249=AXIS2_PLACEMENT_3D('',#370,#291,#292);
#250=AXIS2_PLACEMENT_3D('',#372,#293,#294);
#251=AXIS2_PLACEMENT_3D('',#373,#295,#296);
#252=AXIS2_PLACEMENT_3D('',#374,#297,#298);
#253=AXIS2_PLACEMENT_3D('',#376,#299,#300);
#254=AXIS2_PLACEMENT_3D('',#378,#301,#302);
#255=AXIS2_PLACEMENT_3D('',#379,#303,#304);
#256=AXIS2_PLACEMENT_3D('',#381,#305,#306);
#257=AXIS2_PLACEMENT_3D('',#382,#307,#308);
#258=AXIS2_PLACEMENT_3D('',#384,#309,#310);
#259=AXIS2_PLACEMENT_3D('',#385,#311,#312);
#260=AXIS2_PLACEMENT_3D('',#387,#313,#314);
#261=AXIS2_PLACEMENT_3D('',#389,#315,#316);
#262=AXIS2_PLACEMENT_3D('',#390,#317,#318);
#263=AXIS2_PLACEMENT_3D('',#391,#319,#320);
#264=AXIS2_PLACEMENT_3D('',#393,#321,#322);
#265=AXIS2_PLACEMENT_3D('',#394,#323,#324);
#266=AXIS2_PLACEMENT_3D('',#396,#325,#326);
#267=AXIS2_PLACEMENT_3D('',#398,#327,#328);
#268=AXIS2_PLACEMENT_3D('',#399,#329,#330);
#269=AXIS2_PLACEMENT_3D('',#401,#331,#332);
#270=AXIS2_PLACEMENT_3D('',#402,#333,#334);
#271=AXIS2_PLACEMENT_3D('',#404,#335,#336);
#272=AXIS2_PLACEMENT_3D('',#405,#337,#338);
#273=AXIS2_PLACEMENT_3D('',#406,#339,#340);
#274=AXIS2_PLACEMENT_3D('',#408,#341,#342);
#275=AXIS2_PLACEMENT_3D('',#409,#343,#344);
#276=AXIS2_PLACEMENT_3D('',#411,#345,#346);
#277=AXIS2_PLACEMENT_3D('',#412,#347,#348);
#278=AXIS2_PLACEMENT_3D('',#414,#349,#350);
#279=AXIS2_PLACEMENT_3D('',#415,#351,#352);
#280=AXIS2_PLACEMENT_3D('',#416,#353,#354);
#281=AXIS2_PLACEMENT_3D('',#418,#355,#356);
#282=AXIS2_PLACEMENT_3D('',#419,#357,#358);
#283=AXIS2_PLACEMENT_3D('',#421,#359,#360);
#284=AXIS2_PLACEMENT_3D('',#422,#361,#362);
#285=AXIS2_PLACEMENT_3D('',#424,#363,#364);
#286=AXIS2_PLACEMENT_3D('',#425,#365,#366);
#287=DIRECTION('axis',(0.,0.,1.));
#288=DIRECTION('refdir',(1.,0.,0.));
#289=DIRECTION('center_axis',(-1.27496442371948E-15,-1.,-2.5534578719295E-15));
#290=DIRECTION('ref_axis',(0.878950858762052,9.71445146547008E-17,-0.476912348216578));
#291=DIRECTION('center_axis',(-1.27496442371948E-15,-1.,-2.5534578719295E-15));
#292=DIRECTION('ref_axis',(0.878950858762052,9.71445146547008E-17,-0.476912348216578));
#293=DIRECTION('center_axis',(0.,1.,0.));
#294=DIRECTION('ref_axis',(0.878950858762052,9.71445146547008E-17,-0.476912348216578));
#295=DIRECTION('center_axis',(-1.27496442371948E-15,-1.,-2.5534578719295E-15));
#296=DIRECTION('ref_axis',(-0.476912348216578,2.85275275624386E-15,-0.878950858762052));
#297=DIRECTION('center_axis',(0.,1.,0.));
#298=DIRECTION('ref_axis',(0.,0.,1.));
#299=DIRECTION('center_axis',(0.,1.,0.));
#300=DIRECTION('ref_axis',(-1.,0.,0.));
#301=DIRECTION('center_axis',(0.,-1.,0.));
#302=DIRECTION('ref_axis',(-1.,0.,-1.22464679914735E-16));
#303=DIRECTION('center_axis',(0.,-1.,0.));
#304=DIRECTION('ref_axis',(1.,0.,0.));
#305=DIRECTION('center_axis',(0.,1.,0.));
#306=DIRECTION('ref_axis',(1.,0.,0.));
#307=DIRECTION('center_axis',(0.,1.,0.));
#308=DIRECTION('ref_axis',(0.,0.,1.));
#309=DIRECTION('center_axis',(0.,1.,0.));
#310=DIRECTION('ref_axis',(1.,0.,0.));
#311=DIRECTION('center_axis',(0.,1.,0.));
#312=DIRECTION('ref_axis',(0.,0.,1.));
#313=DIRECTION('center_axis',(0.,1.,0.));
#314=DIRECTION('ref_axis',(-1.,0.,-1.22464679914735E-16));
#315=DIRECTION('center_axis',(0.,-1.,0.));
#316=DIRECTION('ref_axis',(-1.,0.,0.));
#317=DIRECTION('center_axis',(0.,-1.,0.));
#318=DIRECTION('ref_axis',(0.,0.,-1.));
#319=DIRECTION('center_axis',(0.,1.,0.));
#320=DIRECTION('ref_axis',(1.,0.,0.));
#321=DIRECTION('center_axis',(0.,1.,0.));
#322=DIRECTION('ref_axis',(1.,0.,0.));
#323=DIRECTION('center_axis',(0.,1.,0.));
#324=DIRECTION('ref_axis',(0.,0.,1.));
#325=DIRECTION('center_axis',(0.,1.,0.));
#326=DIRECTION('ref_axis',(-1.,0.,0.));
#327=DIRECTION('center_axis',(0.,-1.,0.));
#328=DIRECTION('ref_axis',(-1.,0.,-1.22464679914735E-16));
#329=DIRECTION('center_axis',(0.,-1.,0.));
#330=DIRECTION('ref_axis',(1.,0.,0.));
#331=DIRECTION('center_axis',(0.,1.,0.));
#332=DIRECTION('ref_axis',(1.,0.,0.));
#333=DIRECTION('center_axis',(0.,-1.,0.));
#334=DIRECTION('ref_axis',(0.,0.,-1.));
#335=DIRECTION('center_axis',(0.,1.,0.));
#336=DIRECTION('ref_axis',(1.,0.,0.));
#337=DIRECTION('center_axis',(0.,1.,0.));
#338=DIRECTION('ref_axis',(0.,0.,1.));
#339=DIRECTION('center_axis',(0.,1.,0.));
#340=DIRECTION('ref_axis',(1.,0.,0.));
#341=DIRECTION('center_axis',(0.,1.,0.));
#342=DIRECTION('ref_axis',(1.,0.,0.));
#343=DIRECTION('center_axis',(0.,1.,0.));
#344=DIRECTION('ref_axis',(0.,0.,1.));
#345=DIRECTION('center_axis',(0.,1.,0.));
#346=DIRECTION('ref_axis',(1.,0.,0.));
#347=DIRECTION('center_axis',(0.,-1.,0.));
#348=DIRECTION('ref_axis',(1.,0.,0.));
#349=DIRECTION('center_axis',(0.,1.,0.));
#350=DIRECTION('ref_axis',(1.,0.,0.));
#351=DIRECTION('center_axis',(0.,1.,0.));
#352=DIRECTION('ref_axis',(0.,0.,1.));
#353=DIRECTION('center_axis',(0.,1.,0.));
#354=DIRECTION('ref_axis',(1.,0.,0.));
#355=DIRECTION('center_axis',(0.,1.,0.));
#356=DIRECTION('ref_axis',(1.,0.,0.));
#357=DIRECTION('center_axis',(0.,1.,0.));
#358=DIRECTION('ref_axis',(0.,0.,1.));
#359=DIRECTION('center_axis',(0.,1.,0.));
#360=DIRECTION('ref_axis',(1.,0.,0.));
#361=DIRECTION('center_axis',(0.,1.,0.));
#362=DIRECTION('ref_axis',(1.,0.,0.));
#363=DIRECTION('center_axis',(0.,1.,0.));
#364=DIRECTION('ref_axis',(1.,0.,0.));
#365=DIRECTION('center_axis',(0.,1.,0.));
#366=DIRECTION('ref_axis',(0.,0.,1.));
#367=CARTESIAN_POINT('',(0.,0.,0.));
#368=CARTESIAN_POINT('Origin',(5.02787772140619E-16,-0.00249999999999906,
-2.15660960245208E-16));
#369=CARTESIAN_POINT('',(2.10948206102892,-0.00499999999999877,-1.14458963571979));
#370=CARTESIAN_POINT('Origin',(4.9960036108132E-16,-0.00499999999999901,
-2.22044604925031E-16));
#371=CARTESIAN_POINT('',(2.10948206102892,1.12149872721901E-15,-1.14458963571979));
#372=CARTESIAN_POINT('Origin',(5.05975183199921E-16,3.22918775053083E-15,
-2.09277315565378E-16));
#373=CARTESIAN_POINT('Origin',(2.05013290025542,-0.00499999999999878,-1.11238721240224));
#374=CARTESIAN_POINT('Origin',(0.,0.95,0.));
#375=CARTESIAN_POINT('',(1.36394086877102,0.988302222155949,0.));
#376=CARTESIAN_POINT('Origin',(0.,0.988302222155949,1.67034581916669E-16));
#377=CARTESIAN_POINT('',(1.33180148828669,1.,3.26197285945995E-16));
#378=CARTESIAN_POINT('Origin',(0.,1.,0.));
#379=CARTESIAN_POINT('Origin',(0.,0.974551730390298,0.));
#380=CARTESIAN_POINT('',(1.41065613346534,0.949103460780596,0.));
#381=CARTESIAN_POINT('Origin',(0.,0.949103460780596,0.));
#382=CARTESIAN_POINT('Origin',(0.9275,1.,0.));
#383=CARTESIAN_POINT('',(0.505,1.,0.));
#384=CARTESIAN_POINT('Origin',(0.,1.,0.));
#385=CARTESIAN_POINT('Origin',(0.,0.0800000000000001,0.));
#386=CARTESIAN_POINT('',(2.62470691716732,5.55111512312578E-17,0.));
#387=CARTESIAN_POINT('Origin',(0.,5.55111512312578E-17,0.));
#388=CARTESIAN_POINT('',(2.69834730544352,0.0487415097208578,6.60904478119858E-16));
#389=CARTESIAN_POINT('Origin',(0.,0.0487415097208578,3.30452239059929E-16));
#390=CARTESIAN_POINT('Origin',(2.49282888103149,5.07511318098048E-17,0.));
#391=CARTESIAN_POINT('Origin',(0.,0.0434438677093565,0.));
#392=CARTESIAN_POINT('',(2.71453941758571,0.0868877354187129,0.));
#393=CARTESIAN_POINT('Origin',(0.,0.086887735418713,0.));
#394=CARTESIAN_POINT('Origin',(0.,0.0800000000000001,0.));
#395=CARTESIAN_POINT('',(2.95165269455648,0.048741509720858,-4.93038065763132E-32));
#396=CARTESIAN_POINT('Origin',(0.,0.048741509720858,3.61473202458325E-16));
#397=CARTESIAN_POINT('',(3.02529308283268,9.71445146547012E-17,7.40983098074733E-16));
#398=CARTESIAN_POINT('Origin',(0.,9.71445146547012E-17,0.));
#399=CARTESIAN_POINT('Origin',(0.,0.0434438677093566,0.));
#400=CARTESIAN_POINT('',(2.93546058241429,0.0868877354187129,0.));
#401=CARTESIAN_POINT('Origin',(0.,0.0868877354187129,0.));
#402=CARTESIAN_POINT('Origin',(3.08617111896851,1.00789249444407E-16,0.));
#403=CARTESIAN_POINT('',(3.2,0.,0.));
#404=CARTESIAN_POINT('Origin',(0.,0.,0.));
#405=CARTESIAN_POINT('Origin',(0.,0.04,0.));
#406=CARTESIAN_POINT('Origin',(0.,0.114491698471612,0.));
#407=CARTESIAN_POINT('',(3.2,0.228983396943223,0.));
#408=CARTESIAN_POINT('Origin',(0.,0.228983396943223,0.));
#409=CARTESIAN_POINT('Origin',(0.,0.228983396943222,0.));
#410=CARTESIAN_POINT('',(3.14736161146605,0.304158806606096,0.));
#411=CARTESIAN_POINT('Origin',(0.,0.304158806606096,0.));
#412=CARTESIAN_POINT('Origin',(0.,0.609266315926653,0.));
#413=CARTESIAN_POINT('',(1.47080962673751,0.91437382524721,0.));
#414=CARTESIAN_POINT('Origin',(0.,0.91437382524721,0.));
#415=CARTESIAN_POINT('Origin',(0.,1.10231234940439,0.));
#416=CARTESIAN_POINT('Origin',(0.,0.96,0.));
#417=CARTESIAN_POINT('',(0.505,0.92,0.));
#418=CARTESIAN_POINT('Origin',(0.,0.92,0.));
#419=CARTESIAN_POINT('Origin',(0.39,0.92,0.));
#420=CARTESIAN_POINT('',(0.275,0.92,0.));
#421=CARTESIAN_POINT('Origin',(0.,0.92,0.));
#422=CARTESIAN_POINT('Origin',(0.,0.87,0.));
#423=CARTESIAN_POINT('',(0.275,0.82,0.));
#424=CARTESIAN_POINT('Origin',(0.,0.82,0.));
#425=CARTESIAN_POINT('Origin',(0.2375,0.82,0.));
#426=UNCERTAINTY_MEASURE_WITH_UNIT(LENGTH_MEASURE(0.001),#430,
'DISTANCE_ACCURACY_VALUE',
'Maximum model space distance between geometric entities at asserted c
onnectivities');
#427=UNCERTAINTY_MEASURE_WITH_UNIT(LENGTH_MEASURE(1.E-6),#431,
'DISTANCE_ACCURACY_VALUE',
'Maximum model space distance between geometric entities at asserted c
onnectivities');
#428=(
GEOMETRIC_REPRESENTATION_CONTEXT(3)
GLOBAL_UNCERTAINTY_ASSIGNED_CONTEXT((#426))
GLOBAL_UNIT_ASSIGNED_CONTEXT((#430,#434,#432))
REPRESENTATION_CONTEXT('','3D')
);
#429=(
GEOMETRIC_REPRESENTATION_CONTEXT(3)
GLOBAL_UNCERTAINTY_ASSIGNED_CONTEXT((#427))
GLOBAL_UNIT_ASSIGNED_CONTEXT((#431,#434,#432))
REPRESENTATION_CONTEXT('','3D')
);
#430=(
LENGTH_UNIT()
NAMED_UNIT(*)
SI_UNIT(.CENTI.,.METRE.)
);
#431=(
LENGTH_UNIT()
NAMED_UNIT(*)
SI_UNIT(.MILLI.,.METRE.)
);
#432=(
NAMED_UNIT(*)
SI_UNIT($,.STERADIAN.)
SOLID_ANGLE_UNIT()
);
#433=DIMENSIONAL_EXPONENTS(0.,0.,0.,0.,0.,0.,0.);
#434=(
CONVERSION_BASED_UNIT('degree',#436)
NAMED_UNIT(#433)
PLANE_ANGLE_UNIT()
);
#435=(
NAMED_UNIT(*)
PLANE_ANGLE_UNIT()
SI_UNIT($,.RADIAN.)
);
#436=PLANE_ANGLE_MEASURE_WITH_UNIT(PLANE_ANGLE_MEASURE(0.01745329252),#435);
#437=SHAPE_DEFINITION_REPRESENTATION(#438,#439);
#438=PRODUCT_DEFINITION_SHAPE('',$,#441);
#439=SHAPE_REPRESENTATION('',(#247),#428);
#440=PRODUCT_DEFINITION_CONTEXT('part definition',#445,'design');
#441=PRODUCT_DEFINITION('31325W','31325W',#442,#440);
#442=PRODUCT_DEFINITION_FORMATION('',$,#447);
#443=PRODUCT_RELATED_PRODUCT_CATEGORY('31325W','31325W',(#447));
#444=APPLICATION_PROTOCOL_DEFINITION('international standard',
'automotive_design',2009,#445);
#445=APPLICATION_CONTEXT(
'Core Data for Automotive Mechanical Design Process');
#446=PRODUCT_CONTEXT('part definition',#445,'mechanical');
#447=PRODUCT('31325W','31325W',$,(#446));
#448=PRESENTATION_STYLE_ASSIGNMENT((#451));
#449=PRESENTATION_STYLE_ASSIGNMENT((#452));
#450=PRESENTATION_STYLE_ASSIGNMENT((#453));
#451=SURFACE_STYLE_USAGE(.BOTH.,#454);
#452=SURFACE_STYLE_USAGE(.BOTH.,#455);
#453=SURFACE_STYLE_USAGE(.BOTH.,#456);
#454=SURFACE_SIDE_STYLE($,(#457));
#455=SURFACE_SIDE_STYLE($,(#458));
#456=SURFACE_SIDE_STYLE($,(#459));
#457=SURFACE_STYLE_FILL_AREA(#460);
#458=SURFACE_STYLE_FILL_AREA(#461);
#459=SURFACE_STYLE_FILL_AREA(#462);
#460=FILL_AREA_STYLE($,(#463));
#461=FILL_AREA_STYLE($,(#464));
#462=FILL_AREA_STYLE($,(#465));
#463=FILL_AREA_STYLE_COLOUR($,#466);
#464=FILL_AREA_STYLE_COLOUR($,#467);
#465=FILL_AREA_STYLE_COLOUR($,#468);
#466=COLOUR_RGB('',0.749019607843137,0.749019607843137,0.749019607843137);
#467=COLOUR_RGB('',0.549019607843137,0.549019607843137,0.592156862745098);
#468=COLOUR_RGB('',0.549019607843137,0.549019607843137,0.592156862745098);
ENDSEC;
END-ISO-10303-21;
